  0
SECTION
  2
HEADER
  9
$ACADVER
  1
AC1015
  9
$ACADMAINTVER
 70
     6
  9
$DWGCODEPAGE
  3
ANSI_1254
  9
$INSBASE
 10
0.0
 20
0.0
 30
0.0
  9
$EXTMIN
 10
0.0
 20
0.0
 30
0.0
  9
$EXTMAX
 10
279.4
 20
215.9
 30
0.0
  9
$LIMMIN
 10
0.0
 20
0.0
  9
$LIMMAX
 10
279.4
 20
215.9
  9
$ORTHOMODE
 70
     0
  9
$REGENMODE
 70
     1
  9
$FILLMODE
 70
     1
  9
$QTEXTMODE
 70
     0
  9
$MIRRTEXT
 70
     1
  9
$LTSCALE
 40
1.0
  9
$ATTMODE
 70
     1
  9
$TEXTSIZE
 40
3.5
  9
$TRACEWID
 40
1.0
  9
$TEXTSTYLE
  7
Standard
  9
$CLAYER
  8
0
  9
$CELTYPE
  6
ByLayer
  9
$CECOLOR
 62
   256
  9
$CELTSCALE
 40
1.0
  9
$DISPSILH
 70
     0
  9
$DIMSCALE
 40
1.0
  9
$DIMASZ
 40
3.5
  9
$DIMEXO
 40
1.0
  9
$DIMDLI
 40
3.75
  9
$DIMRND
 40
0.0
  9
$DIMDLE
 40
0.0
  9
$DIMEXE
 40
1.0
  9
$DIMTP
 40
0.0
  9
$DIMTM
 40
0.0
  9
$DIMTXT
 40
3.5
  9
$DIMCEN
 40
2.5
  9
$DIMTSZ
 40
0.0
  9
$DIMTOL
 70
     0
  9
$DIMLIM
 70
     0
  9
$DIMTIH
 70
     1
  9
$DIMTOH
 70
     1
  9
$DIMSE1
 70
     0
  9
$DIMSE2
 70
     0
  9
$DIMTAD
 70
     1
  9
$DIMZIN
 70
     0
  9
$DIMBLK
  1

  9
$DIMASO
 70
     1
  9
$DIMSHO
 70
     1
  9
$DIMPOST
  1

  9
$DIMAPOST
  1

  9
$DIMALT
 70
     0
  9
$DIMALTD
 70
     3
  9
$DIMALTF
 40
0.0393700787
  9
$DIMLFAC
 40
1.0
  9
$DIMTOFL
 70
     1
  9
$DIMTVP
 40
0.0
  9
$DIMTIX
 70
     0
  9
$DIMSOXD
 70
     0
  9
$DIMSAH
 70
     0
  9
$DIMBLK1
  1

  9
$DIMBLK2
  1

  9
$DIMSTYLE
  2
ISO-25
  9
$DIMCLRD
 70
     0
  9
$DIMCLRE
 70
     0
  9
$DIMCLRT
 70
     0
  9
$DIMTFAC
 40
1.0
  9
$DIMGAP
 40
1.524
  9
$DIMJUST
 70
     0
  9
$DIMSD1
 70
     0
  9
$DIMSD2
 70
     0
  9
$DIMTOLJ
 70
     0
  9
$DIMTZIN
 70
     0
  9
$DIMALTZ
 70
     0
  9
$DIMALTTZ
 70
     0
  9
$DIMUPT
 70
     0
  9
$DIMDEC
 70
     2
  9
$DIMTDEC
 70
     2
  9
$DIMALTU
 70
     2
  9
$DIMALTTD
 70
     3
  9
$DIMTXSTY
  7
Standard
  9
$DIMAUNIT
 70
     0
  9
$DIMADEC
 70
     2
  9
$DIMALTRND
 40
0.0
  9
$DIMAZIN
 70
     0
  9
$DIMDSEP
 70
    44
  9
$DIMATFIT
 70
     3
  9
$DIMFRAC
 70
     0
  9
$DIMLDRBLK
  1

  9
$DIMLUNIT
 70
     2
  9
$DIMLWD
 70
    -2
  9
$DIMLWE
 70
    -2
  9
$DIMTMOVE
 70
     0
  9
$LUNITS
 70
     2
  9
$LUPREC
 70
     2
  9
$SKETCHINC
 40
1.0
  9
$FILLETRAD
 40
10.0
  9
$AUNITS
 70
     0
  9
$AUPREC
 70
     2
  9
$MENU
  1
.
  9
$ELEVATION
 40
0.0
  9
$PELEVATION
 40
0.0
  9
$THICKNESS
 40
0.0
  9
$LIMCHECK
 70
     0
  9
$CHAMFERA
 40
0.0
  9
$CHAMFERB
 40
0.0
  9
$CHAMFERC
 40
0.0
  9
$CHAMFERD
 40
0.0
  9
$SKPOLY
 70
     0
  9
$TDCREATE
 40
2460697.541002003
  9
$TDUCREATE
 40
2460697.416002003
  9
$TDUPDATE
 40
2460697.541002118
  9
$TDUUPDATE
 40
2460697.416002118
  9
$TDINDWG
 40
0.0000000116
  9
$TDUSRTIMER
 40
0.0000000116
  9
$USRTIMER
 70
     1
  9
$ANGBASE
 50
0.0
  9
$ANGDIR
 70
     0
  9
$PDMODE
 70
     0
  9
$PDSIZE
 40
-1.0
  9
$PLINEWID
 40
0.0
  9
$SPLFRAME
 70
     0
  9
$SPLINETYPE
 70
     6
  9
$SPLINESEGS
 70
     8
  9
$HANDSEED
  5
B3
  9
$SURFTAB1
 70
     6
  9
$SURFTAB2
 70
     6
  9
$SURFTYPE
 70
     6
  9
$SURFU
 70
     6
  9
$SURFV
 70
     6
  9
$UCSBASE
  2

  9
$UCSNAME
  2

  9
$UCSORG
 10
0.0
 20
0.0
 30
0.0
  9
$UCSXDIR
 10
1.0
 20
0.0
 30
0.0
  9
$UCSYDIR
 10
0.0
 20
1.0
 30
0.0
  9
$UCSORTHOREF
  2

  9
$UCSORTHOVIEW
 70
     0
  9
$UCSORGTOP
 10
0.0
 20
0.0
 30
0.0
  9
$UCSORGBOTTOM
 10
0.0
 20
0.0
 30
0.0
  9
$UCSORGLEFT
 10
0.0
 20
0.0
 30
0.0
  9
$UCSORGRIGHT
 10
0.0
 20
0.0
 30
0.0
  9
$UCSORGFRONT
 10
0.0
 20
0.0
 30
0.0
  9
$UCSORGBACK
 10
0.0
 20
0.0
 30
0.0
  9
$PUCSBASE
  2

  9
$PUCSNAME
  2

  9
$PUCSORG
 10
0.0
 20
0.0
 30
0.0
  9
$PUCSXDIR
 10
1.0
 20
0.0
 30
0.0
  9
$PUCSYDIR
 10
0.0
 20
1.0
 30
0.0
  9
$PUCSORTHOREF
  2

  9
$PUCSORTHOVIEW
 70
     0
  9
$PUCSORGTOP
 10
0.0
 20
0.0
 30
0.0
  9
$PUCSORGBOTTOM
 10
0.0
 20
0.0
 30
0.0
  9
$PUCSORGLEFT
 10
0.0
 20
0.0
 30
0.0
  9
$PUCSORGRIGHT
 10
0.0
 20
0.0
 30
0.0
  9
$PUCSORGFRONT
 10
0.0
 20
0.0
 30
0.0
  9
$PUCSORGBACK
 10
0.0
 20
0.0
 30
0.0
  9
$USERI1
 70
     0
  9
$USERI2
 70
     0
  9
$USERI3
 70
     0
  9
$USERI4
 70
     0
  9
$USERI5
 70
     0
  9
$USERR1
 40
0.0
  9
$USERR2
 40
0.0
  9
$USERR3
 40
0.0
  9
$USERR4
 40
0.0
  9
$USERR5
 40
0.0
  9
$WORLDVIEW
 70
     1
  9
$SHADEDGE
 70
     3
  9
$SHADEDIF
 70
    70
  9
$TILEMODE
 70
     1
  9
$MAXACTVP
 70
    64
  9
$PINSBASE
 10
0.0
 20
0.0
 30
0.0
  9
$PLIMCHECK
 70
     0
  9
$PEXTMIN
 10
1.0000000000E+20
 20
1.0000000000E+20
 30
1.0000000000E+20
  9
$PEXTMAX
 10
-1.0000000000E+20
 20
-1.0000000000E+20
 30
-1.0000000000E+20
  9
$PLIMMIN
 10
0.0
 20
0.0
  9
$PLIMMAX
 10
420.0
 20
297.0
  9
$UNITMODE
 70
     0
  9
$VISRETAIN
 70
     1
  9
$PLINEGEN
 70
     0
  9
$PSLTSCALE
 70
     1
  9
$TREEDEPTH
 70
  3020
  9
$CMLSTYLE
  2
Standard
  9
$CMLJUST
 70
     0
  9
$CMLSCALE
 40
20.0
  9
$PROXYGRAPHICS
 70
     1
  9
$MEASUREMENT
 70
     1
  9
$CELWEIGHT
370
    -1
  9
$ENDCAPS
280
     0
  9
$JOINSTYLE
280
     0
  9
$LWDISPLAY
290
     1
  9
$INSUNITS
 70
     4
  9
$HYPERLINKBASE
  1

  9
$STYLESHEET
  1

  9
$XEDIT
290
     1
  9
$CEPSNTYPE
380
     0
  9
$PSTYLEMODE
290
     1
  9
$FINGERPRINTGUID
  2
{a3ee9ed6-b571-438b-9df5-0d28e9952c8f}
  9
$VERSIONGUID
  2
{FAEB1C32-E019-11D5-929B-00C0DF256EC4}
  9
$EXTNAMES
290
     1
  9
$PSVPSCALE
 40
0.0
  9
$OLESTARTUP
290
     0
  0
ENDSEC
  0
SECTION
  2
CLASSES
  0
CLASS
  1
ACDBDICTIONARYWDFLT
  2
AcDbDictionaryWithDefault
  3
ObjectDBX Classes
 90
        0
280
     0
281
     0
  0
CLASS
  1
VISUALSTYLE
  2
AcDbVisualStyle
  3
ObjectDBX Classes
 90
     4095
280
     0
281
     0
  0
CLASS
  1
MATERIAL
  2
AcDbMaterial
  3
ObjectDBX Classes
 90
     1153
280
     0
281
     0
  0
CLASS
  1
SCALE
  2
AcDbScale
  3
ObjectDBX Classes
 90
     1153
280
     0
281
     0
  0
CLASS
  1
TABLESTYLE
  2
AcDbTableStyle
  3
ObjectDBX Classes
 90
     4095
280
     0
281
     0
  0
CLASS
  1
MLEADERSTYLE
  2
AcDbMLeaderStyle
  3
ACDB_MLEADERSTYLE_CLASS
 90
     4095
280
     0
281
     0
  0
CLASS
  1
SUN
  2
AcDbSun
  3
SCENEOE
 90
     1153
280
     0
281
     0
  0
CLASS
  1
ACDBPLACEHOLDER
  2
AcDbPlaceHolder
  3
ObjectDBX Classes
 90
        0
280
     0
281
     0
  0
CLASS
  1
LAYOUT
  2
AcDbLayout
  3
ObjectDBX Classes
 90
        0
280
     0
281
     0
  0
ENDSEC
  0
SECTION
  2
TABLES
  0
TABLE
  2
VPORT
  5
8
330
0
100
AcDbSymbolTable
 70
     1
  0
VPORT
  5
29
330
8
100
AcDbSymbolTableRecord
100
AcDbViewportTableRecord
  2
*Active
 70
     0
 10
0.0
 20
0.0
 11
1.0
 21
1.0
 12
139.7
 22
107.95
 13
0.0
 23
0.0
 14
10.0
 24
10.0
 15
10.0
 25
10.0
 16
0.0
 26
0.0
 36
1.0
 17
0.0
 27
0.0
 37
0.0
 40
215.9
 41
1.2941176471
 42
50.0
 43
0.0
 44
0.0
 50
0.0
 51
0.0
 71
     0
 72
  2000
 73
     1
 74
     3
 75
     0
 76
     0
 77
     0
 78
     0
281
     0
 65
     1
110
0.0
120
0.0
130
0.0
111
1.0
121
0.0
131
0.0
112
0.0
122
1.0
132
0.0
 79
     0
146
0.0
  0
ENDTAB
  0
TABLE
  2
LTYPE
  5
5
330
0
100
AcDbSymbolTable
 70
     6
  0
LTYPE
  5
14
330
5
100
AcDbSymbolTableRecord
100
AcDbLinetypeTableRecord
  2
ByBlock
 70
     0
  3

 72
    65
 73
     0
 40
0.0
  0
LTYPE
  5
15
330
5
100
AcDbSymbolTableRecord
100
AcDbLinetypeTableRecord
  2
ByLayer
 70
     0
  3

 72
    65
 73
     0
 40
0.0
  0
LTYPE
  5
16
330
5
100
AcDbSymbolTableRecord
100
AcDbLinetypeTableRecord
  2
Continuous
 70
     0
  3
Solid line
 72
    65
 73
     0
 40
0.0
  0
LTYPE
  5
6E
330
5
100
AcDbSymbolTableRecord
100
AcDbLinetypeTableRecord
  2
HIDDEN
 70
     0
  3
Hidden __ __ __ __ __ __ __ __ __ __ __ __ __ __
 72
    65
 73
     2
 40
1.905
 49
1.27
 74
     0
 49
-0.635
 74
     0
  0
LTYPE
  5
6F
330
5
100
AcDbSymbolTableRecord
100
AcDbLinetypeTableRecord
  2
PHANTOM
 70
     0
  3
Phantom ______  __  __  ______  __  __  ______
 72
    65
 73
     6
 40
12.7
 49
6.35
 74
     0
 49
-1.27
 74
     0
 49
1.27
 74
     0
 49
-1.27
 74
     0
 49
1.27
 74
     0
 49
-1.27
 74
     0
  0
LTYPE
  5
70
330
5
100
AcDbSymbolTableRecord
100
AcDbLinetypeTableRecord
  2
CENTER
 70
     0
  3
Center ____ _ ____ _ ____ _ ____ _ ____ _ ____
 72
    65
 73
     4
 40
10.16
 49
6.35
 74
     0
 49
-1.27
 74
     0
 49
1.27
 74
     0
 49
-1.27
 74
     0
  0
LTYPE
  5
71
330
5
100
AcDbSymbolTableRecord
100
AcDbLinetypeTableRecord
  2
CENTERX2
 70
     0
  3
Center (2x) ________  __  ________  __  _____
 72
    65
 73
     4
 40
20.32
 49
12.7
 74
     0
 49
-2.54
 74
     0
 49
2.54
 74
     0
 49
-2.54
 74
     0
  0
LTYPE
  5
72
330
5
100
AcDbSymbolTableRecord
100
AcDbLinetypeTableRecord
  2
DOT2
 70
     0
  3
Dot (.5x) ........................................
 72
    65
 73
     2
 40
0.635
 49
0.0
 74
     0
 49
-0.635
 74
     0
  0
ENDTAB
  0
TABLE
  2
LAYER
  5
2
330
0
100
AcDbSymbolTable
 70
    17
  0
LAYER
  5
10
330
2
100
AcDbSymbolTableRecord
100
AcDbLayerTableRecord
  2
0
 70
     0
 62
     7
  6
Continuous
370
    -3
390
F
  0
LAYER
  5
73
330
2
100
AcDbSymbolTableRecord
100
AcDbLayerTableRecord
  2
FORMAT
 70
     0
 62
     7
  6
Continuous
370
    -3
390
F
  0
LAYER
  5
74
330
2
100
AcDbSymbolTableRecord
100
AcDbLayerTableRecord
  2
YARDIMCI_GEOMETRI
 70
     0
 62
    -6
  6
Continuous
290
     0
370
    -3
390
F
  0
LAYER
  5
75
330
2
100
AcDbSymbolTableRecord
100
AcDbLayerTableRecord
  2
SAYFA_CERCEVESI
 70
     0
 62
     7
  6
Continuous
370
    25
390
F
  0
LAYER
  5
76
330
2
100
AcDbSymbolTableRecord
100
AcDbLayerTableRecord
  2
ANTET
 70
     0
 62
     7
  6
Continuous
370
    -3
390
F
  0
LAYER
  5
77
330
2
100
AcDbSymbolTableRecord
100
AcDbLayerTableRecord
  2
OLCU
 70
     0
 62
   150
  6
Continuous
370
    -3
390
F
  0
LAYER
  5
78
330
2
100
AcDbSymbolTableRecord
100
AcDbLayerTableRecord
  2
METIN
 70
     0
 62
    96
  6
Continuous
370
    -3
390
F
  0
LAYER
  5
79
330
2
100
AcDbSymbolTableRecord
100
AcDbLayerTableRecord
  2
BALON
 70
     0
 62
     5
  6
Continuous
370
    -3
390
F
  0
LAYER
  5
7A
330
2
100
AcDbSymbolTableRecord
100
AcDbLayerTableRecord
  2
VURGU
 70
     0
 62
     7
  6
Continuous
370
    -3
390
F
  0
LAYER
  5
7B
330
2
100
AcDbSymbolTableRecord
100
AcDbLayerTableRecord
  2
SILIK
 70
     0
 62
     7
  6
Continuous
370
    -3
390
F
  0
LAYER
  5
7C
330
2
100
AcDbSymbolTableRecord
100
AcDbLayerTableRecord
  2
MODEL
 70
     0
 62
     7
  6
Continuous
370
    -3
390
F
  0
LAYER
  5
7D
330
2
100
AcDbSymbolTableRecord
100
AcDbLayerTableRecord
  2
DETAYLANDıRMA
 70
     0
 62
   190
  6
Continuous
370
    -3
390
F
  0
LAYER
  5
7E
330
2
100
AcDbSymbolTableRecord
100
AcDbLayerTableRecord
  2
TOLERANS
 70
     0
 62
   230
  6
Continuous
370
    -3
390
F
  0
LAYER
  5
7F
330
2
100
AcDbSymbolTableRecord
100
AcDbLayerTableRecord
  2
MERKEZ_CIZGILERI
 70
     0
 62
    30
  6
Continuous
370
    -3
390
F
  0
LAYER
  5
80
330
2
100
AcDbSymbolTableRecord
100
AcDbLayerTableRecord
  2
KESIT-DETAY_CIZGILERI
 70
     0
 62
     7
  6
Continuous
370
    -3
390
F
  0
LAYER
  5
81
330
2
100
AcDbSymbolTableRecord
100
AcDbLayerTableRecord
  2
\U+041E\U+0421\U+0415\U+0412\U+042B\U+0415
 70
     0
 62
     7
  6
Continuous
370
    -3
390
F
  0
LAYER
  5
82
330
2
100
AcDbSymbolTableRecord
100
AcDbLayerTableRecord
  2
\U+0412\U+041E\U+0414\U+042F\U+041D\U+042B\U+0415_\U+0417\U+041D\U+0410\U+041A\U+0418
 70
     0
 62
    11
  6
Continuous
370
    -3
390
F
  0
ENDTAB
  0
TABLE
  2
STYLE
  5
3
330
0
100
AcDbSymbolTable
 70
     1
  0
STYLE
  5
11
330
3
100
AcDbSymbolTableRecord
100
AcDbTextStyleTableRecord
  2
Standard
 70
     0
 40
0.0
 41
1.0
 50
0.0
 71
     0
 42
3.5
  3
txt
  4

  0
ENDTAB
  0
TABLE
  2
VIEW
  5
6
330
0
100
AcDbSymbolTable
 70
     0
  0
ENDTAB
  0
TABLE
  2
UCS
  5
7
330
0
100
AcDbSymbolTable
 70
     0
  0
ENDTAB
  0
TABLE
  2
APPID
  5
9
330
0
100
AcDbSymbolTable
 70
     1
  0
APPID
  5
12
330
9
100
AcDbSymbolTableRecord
100
AcDbRegAppTableRecord
  2
ACAD
 70
     0
  0
ENDTAB
  0
TABLE
  2
DIMSTYLE
  5
A
330
0
100
AcDbSymbolTable
 70
     1
100
AcDbDimStyleTable
  0
DIMSTYLE
105
27
330
A
100
AcDbSymbolTableRecord
100
AcDbDimStyleTableRecord
  2
ISO-25
 70
     0
 41
2.5
 42
0.625
 43
3.75
 44
1.25
 73
     0
 74
     0
 77
     1
 78
     8
140
2.5
141
2.5
143
0.0393700787
147
0.625
171
     3
172
     1
178
     0
271
     2
272
     2
274
     3
278
    44
283
     0
284
     8
340
11
  0
ENDTAB
  0
TABLE
  2
BLOCK_RECORD
  5
1
330
0
100
AcDbSymbolTable
 70
     2
  0
BLOCK_RECORD
  5
1F
330
1
100
AcDbSymbolTableRecord
100
AcDbBlockTableRecord
  2
*Model_Space
340
22
  0
BLOCK_RECORD
  5
1B
330
1
100
AcDbSymbolTableRecord
100
AcDbBlockTableRecord
  2
*Paper_Space
340
1E
  0
BLOCK_RECORD
  5
23
330
1
100
AcDbSymbolTableRecord
100
AcDbBlockTableRecord
  2
*Paper_Space0
340
26
  0
BLOCK_RECORD
  5
85
330
1
100
AcDbSymbolTableRecord
100
AcDbBlockTableRecord
  2
SW_CENTERMARKSYMBOL_0
340
0
102
{BLKREFS
331
90
102
}
  0
ENDTAB
  0
ENDSEC
  0
SECTION
  2
BLOCKS
  0
BLOCK
  5
20
330
1F
100
AcDbEntity
  8
0
100
AcDbBlockBegin
  2
*Model_Space
 70
     0
 10
0.0
 20
0.0
 30
0.0
  3
*Model_Space
  1

  0
ENDBLK
  5
21
330
1F
100
AcDbEntity
  8
0
100
AcDbBlockEnd
  0
BLOCK
  5
1C
330
1B
100
AcDbEntity
 67
     1
  8
0
100
AcDbBlockBegin
  2
*Paper_Space
 70
     0
 10
0.0
 20
0.0
 30
0.0
  3
*Paper_Space
  1

  0
ENDBLK
  5
1D
330
1B
100
AcDbEntity
 67
     1
  8
0
100
AcDbBlockEnd
  0
BLOCK
  5
24
330
23
100
AcDbEntity
  8
0
100
AcDbBlockBegin
  2
*Paper_Space0
 70
     0
 10
0.0
 20
0.0
 30
0.0
  3
*Paper_Space0
  1

  0
ENDBLK
  5
25
330
23
100
AcDbEntity
  8
0
100
AcDbBlockEnd
  0
BLOCK
  5
86
330
85
100
AcDbEntity
  8
0
100
AcDbBlockBegin
  2
SW_CENTERMARKSYMBOL_0
 70
     0
 10
0.0
 20
0.0
 30
0.0
  3
SW_CENTERMARKSYMBOL_0
  1

  0
LINE
  5
88
330
85
100
AcDbEntity
  8
FORMAT
 62
     0
100
AcDbLine
 10
0.0
 20
0.0
 30
0.0
 11
0.0
 21
2.5
 31
0.0
  0
LINE
  5
89
330
85
100
AcDbEntity
  8
FORMAT
 62
     0
100
AcDbLine
 10
0.0
 20
0.0
 30
0.0
 11
-2.5
 21
0.0
 31
0.0
  0
LINE
  5
8A
330
85
100
AcDbEntity
  8
FORMAT
 62
     0
100
AcDbLine
 10
0.0
 20
0.0
 30
0.0
 11
0.0
 21
-2.5
 31
0.0
  0
LINE
  5
8B
330
85
100
AcDbEntity
  8
FORMAT
 62
     0
100
AcDbLine
 10
0.0
 20
0.0
 30
0.0
 11
2.5
 21
0.0
 31
0.0
  0
LINE
  5
8C
330
85
100
AcDbEntity
  8
FORMAT
 62
     0
100
AcDbLine
 10
0.0
 20
5.0
 30
0.0
 11
0.0
 21
142.5
 31
0.0
  0
LINE
  5
8D
330
85
100
AcDbEntity
  8
FORMAT
 62
     0
100
AcDbLine
 10
-5.0
 20
0.0
 30
0.0
 11
-142.5
 21
0.0
 31
0.0
  0
LINE
  5
8E
330
85
100
AcDbEntity
  8
FORMAT
 62
     0
100
AcDbLine
 10
0.0
 20
-5.0
 30
0.0
 11
0.0
 21
-142.5
 31
0.0
  0
LINE
  5
8F
330
85
100
AcDbEntity
  8
FORMAT
 62
     0
100
AcDbLine
 10
5.0
 20
0.0
 30
0.0
 11
142.5
 21
0.0
 31
0.0
  0
ENDBLK
  5
87
330
85
100
AcDbEntity
  8
0
100
AcDbBlockEnd
  0
ENDSEC
  0
SECTION
  2
ENTITIES
  0
CIRCLE
  5
83
330
1F
100
AcDbEntity
  8
0
  6
Continuous
 62
     7
370
    25
100
AcDbCircle
 10
148.9774122435
 20
106.0321058177
 30
0.0
 40
114.6
  0
CIRCLE
  5
84
330
1F
100
AcDbEntity
  8
0
  6
Continuous
 62
     7
370
    25
100
AcDbCircle
 10
148.9774122435
 20
106.0321058177
 30
0.0
 40
140.0
  0
INSERT
  5
90
330
1F
100
AcDbEntity
  8
FORMAT
100
AcDbBlockReference
  2
SW_CENTERMARKSYMBOL_0
 10
148.9774122435
 20
106.0321058177
 30
0.0
  0
ARC
  5
91
330
1F
100
AcDbEntity
  8
0
  6
Continuous
 62
     7
370
    25
100
AcDbCircle
 10
145.0848278428
 20
716.1273195289
 30
0.0
 40
420.0
100
AcDbArc
 50
270.5310282157
 51
290.0354443722
  0
ARC
  5
92
330
1F
100
AcDbEntity
  8
0
  6
Continuous
 62
     7
370
    25
100
AcDbCircle
 10
152.8699966441
 20
716.1273195289
 30
0.0
 40
420.0
100
AcDbArc
 50
249.9645556278
 51
269.4689717843
  0
LINE
  5
93
330
1F
100
AcDbEntity
  8
0
  6
Continuous
 62
     7
370
    25
100
AcDbLine
 10
8.9774122435
 20
485.7371179961
 30
0.0
 11
8.9774122435
 21
321.5453582655
 31
0.0
  0
LINE
  5
94
330
1F
100
AcDbEntity
  8
0
  6
Continuous
 62
     7
370
    25
100
AcDbLine
 10
288.9774122435
 20
321.5453582655
 30
0.0
 11
288.9774122435
 21
485.7371179961
 31
0.0
  0
LINE
  5
95
330
1F
100
AcDbEntity
  8
0
  6
Continuous
 62
     7
370
    25
100
AcDbLine
 10
148.9774122435
 20
321.5453582655
 30
0.0
 11
288.9774122435
 21
321.5453582655
 31
0.0
  0
LINE
  5
96
330
1F
100
AcDbEntity
  8
0
  6
Continuous
 62
     7
370
    25
100
AcDbLine
 10
8.9774122435
 20
321.5453582655
 30
0.0
 11
148.9774122435
 21
321.5453582655
 31
0.0
  0
LINE
  5
97
330
1F
100
AcDbEntity
  8
0
  6
Continuous
 62
     7
370
    25
100
AcDbLine
 10
148.9774122435
 20
485.7371179961
 30
0.0
 11
288.9774122435
 21
485.7371179961
 31
0.0
  0
LINE
  5
98
330
1F
100
AcDbEntity
  8
0
  6
Continuous
 62
     7
370
    25
100
AcDbLine
 10
8.9774122435
 20
485.7371179961
 30
0.0
 11
148.9774122435
 21
485.7371179961
 31
0.0
  0
LINE
  5
99
330
1F
100
AcDbEntity
  8
0
  6
Continuous
 62
     7
370
    25
100
AcDbLine
 10
288.9774122435
 20
-300.7938551575
 30
0.0
 11
288.9774122435
 21
-136.6020954268
 31
0.0
  0
LINE
  5
9A
330
1F
100
AcDbEntity
  8
0
  6
Continuous
 62
     7
370
    25
100
AcDbLine
 10
8.9774122435
 20
-136.6020954268
 30
0.0
 11
8.9774122435
 21
-300.7938551575
 31
0.0
  0
ARC
  5
9B
330
1F
100
AcDbEntity
  8
0
  6
Continuous
 62
     7
370
    25
100
AcDbCircle
 10
152.8699966441
 20
-531.1840566902
 30
0.0
 40
420.0
100
AcDbArc
 50
90.5310282157
 51
110.0354443722
  0
ARC
  5
9C
330
1F
100
AcDbEntity
  8
0
  6
Continuous
 62
     7
370
    25
100
AcDbCircle
 10
145.0848278428
 20
-531.1840566902
 30
0.0
 40
420.0
100
AcDbArc
 50
69.9645556278
 51
89.4689717843
  0
LINE
  5
9D
330
1F
100
AcDbEntity
  8
0
  6
Continuous
 62
     7
370
    25
100
AcDbLine
 10
288.9774122435
 20
-300.7938551575
 30
0.0
 11
8.9774122435
 21
-300.7938551575
 31
0.0
  0
LINE
  5
9E
330
1F
100
AcDbEntity
  8
0
  6
Continuous
 62
     7
370
    25
100
AcDbLine
 10
288.9774122435
 20
-136.6020954268
 30
0.0
 11
8.9774122435
 21
-136.6020954268
 31
0.0
  0
ARC
  5
9F
330
1F
100
AcDbEntity
  8
0
  6
Continuous
 62
     7
370
    25
100
AcDbCircle
 10
841.6937827686
 20
109.9246902183
 30
0.0
 40
420.0
100
AcDbArc
 50
180.5310282157
 51
200.0354443722
  0
ARC
  5
A0
330
1F
100
AcDbEntity
  8
0
  6
Continuous
 62
     7
370
    25
100
AcDbCircle
 10
841.6937827686
 20
102.139521417
 30
0.0
 40
420.0
100
AcDbArc
 50
159.9645556278
 51
179.4689717843
  0
LINE
  5
A1
330
1F
100
AcDbEntity
  8
0
  6
Continuous
 62
     7
370
    25
100
AcDbLine
 10
611.3035812358
 20
246.0321058177
 30
0.0
 11
447.1118215051
 21
246.0321058177
 31
0.0
  0
LINE
  5
A2
330
1F
100
AcDbEntity
  8
0
  6
Continuous
 62
     7
370
    25
100
AcDbLine
 10
447.1118215051
 20
-33.9678941823
 30
0.0
 11
611.3035812358
 21
-33.9678941823
 31
0.0
  0
LINE
  5
A3
330
1F
100
AcDbEntity
  8
0
  6
Continuous
 62
     7
370
    25
100
AcDbLine
 10
447.1118215051
 20
246.0321058177
 30
0.0
 11
447.1118215051
 21
-33.9678941823
 31
0.0
  0
LINE
  5
A4
330
1F
100
AcDbEntity
  8
0
  6
Continuous
 62
     7
370
    25
100
AcDbLine
 10
611.3035812358
 20
246.0321058177
 30
0.0
 11
611.3035812358
 21
-33.9678941823
 31
0.0
  0
ARC
  5
A5
330
1F
100
AcDbEntity
  8
0
  6
Continuous
 62
     7
370
    25
100
AcDbCircle
 10
-510.2428637098
 20
102.139521417
 30
0.0
 40
419.9999999999999
100
AcDbArc
 50
0.5310282157
 51
20.0354443722
  0
ARC
  5
A6
330
1F
100
AcDbEntity
  8
0
  6
Continuous
 62
     7
370
    25
100
AcDbCircle
 10
-510.2428637098
 20
109.9246902183
 30
0.0
 40
419.9999999999999
100
AcDbArc
 50
339.9645556278
 51
359.4689717843
  0
LINE
  5
A7
330
1F
100
AcDbEntity
  8
0
  6
Continuous
 62
     7
370
    25
100
AcDbLine
 10
-279.852662177
 20
-33.9678941823
 30
0.0
 11
-115.6609024464
 21
-33.9678941823
 31
0.0
  0
LINE
  5
A8
330
1F
100
AcDbEntity
  8
0
  6
Continuous
 62
     7
370
    25
100
AcDbLine
 10
-115.6609024464
 20
246.0321058177
 30
0.0
 11
-279.852662177
 21
246.0321058177
 31
0.0
  0
LINE
  5
A9
330
1F
100
AcDbEntity
  8
0
  6
Continuous
 62
     7
370
    25
100
AcDbLine
 10
-115.6609024464
 20
-33.9678941823
 30
0.0
 11
-115.6609024464
 21
246.0321058177
 31
0.0
  0
LINE
  5
AA
330
1F
100
AcDbEntity
  8
0
  6
Continuous
 62
     7
370
    25
100
AcDbLine
 10
-279.852662177
 20
-33.9678941823
 30
0.0
 11
-279.852662177
 21
246.0321058177
 31
0.0
  0
LINE
  5
AB
330
1F
100
AcDbEntity
  8
0
  6
Continuous
 62
     7
370
    25
100
AcDbLine
 10
402.9756097082
 20
-340.346003633
 30
0.0
 11
519.0767164287
 21
-407.3697459023
 31
0.0
  0
LINE
  5
AC
330
1F
100
AcDbEntity
  8
0
  6
Continuous
 62
     7
370
    25
100
AcDbLine
 10
659.0653389978
 20
-164.8760644357
 30
0.0
 11
542.9642322772
 21
-97.8523221664
 31
0.0
  0
LWPOLYLINE
  5
AD
330
1F
100
AcDbEntity
  8
0
  6
Continuous
 62
     7
370
    25
100
AcDbPolyline
 90
      136
 70
   128
 43
0.0
 10
472.9699209927
 20
-333.4148765637
 10
477.575691918
 20
-330.6322304137
 10
482.171487769
 20
-327.6080284754
 10
486.7473550754
 20
-324.3488204966
 10
491.2933835275
 20
-320.8616651961
 10
495.7997274399
 20
-317.1541149759
 10
500.2566270752
 20
-313.234199564
 10
504.6544297813
 20
-309.1104086245
 10
508.9836108968
 20
-304.7916733701
 10
513.2347943793
 20
-300.2873472198
 10
517.3987731122
 20
-295.6071855411
 10
521.4665288447
 20
-290.7613245218
 10
525.4292517236
 20
-285.760259218
 10
529.2783593737
 20
-280.6148208235
 10
533.0055154848
 20
-275.3361532121
 10
536.6026478668
 20
-269.9356888023
 10
540.0619659319
 20
-264.4251237975
 10
543.3759775676
 20
-258.8163928545
 10
546.5375053625
 20
-253.1216432355
 10
549.5397021515
 20
-247.3532085002
 10
552.3760658449
 20
-241.5235817936
 10
555.0404535104
 20
-235.645388789
 10
557.5270946777
 20
-229.7313603437
 10
559.8306038358
 20
-223.7943049262
 10
561.9459920967
 20
-217.8470808766
 10
563.8686780005
 20
-211.9025685579
 10
565.5944974377
 20
-205.97364246
 10
567.1197126677
 20
-200.0731433166
 10
568.4410204139
 20
-194.213850295
 10
569.555559018
 20
-188.4084533191
 10
570.4609146375
 20
-182.669525586
 10
571.1551264738
 20
-177.0094963353
 10
571.6366910187
 20
-171.44062393
 10
571.9045653104
 20
-165.9749693076
 10
571.9581691931
 20
-160.624369859
 10
571.7973865726
 20
-155.4004137911
 10
571.4225656682
 20
-150.3144150296
 10
570.8345182586
 20
-145.3773887151
 10
570.0345179235
 20
-140.6000273474
 10
569.0242972856
 20
-135.9926776274
 10
567.8060442577
 20
-131.5653180485
 10
566.3823973046
 20
-127.3275372858
 10
564.7564397286
 20
-123.2885134288
 10
562.9316929919
 20
-119.4569941036
 10
560.9121090893
 20
-115.8412775281
 10
558.7020619901
 20
-112.4491945391
 10
556.3063381641
 20
-109.2880916331
 10
553.7301262156
 20
-106.364815055
 10
550.979005646
 20
-103.6856959711
 10
548.0589347698
 20
-101.2565367565
 10
544.9762378105
 20
-99.0825984293
 10
541.7375912031
 20
-97.1685892559
 10
538.3500091349
 20
-95.5186545538
 10
534.8208283545
 20
-94.1363677143
 10
531.1576922816
 20
-93.0247224627
 10
527.3685344531
 20
-92.1861263753
 10
523.4615613411
 20
-91.6223956644
 10
519.4452345795
 20
-91.3347512451
 10
515.3282526377
 20
-91.3238160913
 10
511.1195319817
 20
-91.5896138861
 10
506.8281877634
 20
-92.1315689705
 10
502.4635140788
 20
-92.9485075907
 10
498.034963839
 20
-94.0386604393
 10
493.5521282978
 20
-95.3996664882
 10
489.0247162789
 20
-97.0285781013
 10
484.4625331483
 20
-98.9218674188
 10
479.875459579
 20
-101.0754339975
 10
475.2734301508
 20
-103.4846136919
 10
470.6664118347
 20
-106.1441887551
 10
466.0643824065
 20
-109.0483991399
 10
461.4773088371
 20
-112.1909549732
 10
456.9151257066
 20
-115.5650501788
 10
452.3877136876
 20
-119.1633772179
 10
447.9048781464
 20
-122.9781429154
 10
443.4763279067
 20
-127.0010853383
 10
439.111654222
 20
-131.223491689
 10
434.8203100037
 20
-135.6362171757
 10
430.6115893477
 20
-140.2297048175
 10
426.4946074059
 20
-144.9940061431
 10
422.4782806443
 20
-149.9188027367
 10
418.5713075324
 20
-154.9934285856
 10
414.7821497039
 20
-160.2068931801
 10
411.1190136309
 20
-165.5479053169
 10
407.5898328505
 20
-171.0048975529
 10
404.2022507824
 20
-176.5660512582
 10
400.9636041749
 20
-182.2193222122
 10
397.8809072156
 20
-187.9524666888
 10
394.9608363395
 20
-193.7530679738
 10
392.2097157699
 20
-199.6085632563
 10
389.6335038213
 20
-205.5062708376
 10
387.2377799953
 20
-211.4334175963
 10
385.0277328961
 20
-217.3771666523
 10
383.0081489936
 20
-223.3246451687
 10
381.1834022568
 20
-229.2629722315
 10
379.5574446808
 20
-235.1792867465
 10
378.1337977278
 20
-241.0607752939
 10
376.9155446999
 20
-246.8946998792
 10
375.9053240619
 20
-252.6684255208
 10
375.1053237268
 20
-258.3694476147
 10
374.5172763172
 20
-263.9854190165
 10
374.1424554129
 20
-269.5041767827
 10
373.9816727923
 20
-274.9137685129
 10
374.035276675
 20
-280.2024782359
 10
374.3031509668
 20
-285.3588517843
 10
374.7847155116
 20
-290.371721601
 10
375.4789273479
 20
-295.2302309263
 10
376.3842829674
 20
-299.9238573109
 10
377.4988215715
 20
-304.4424354053
 10
378.8201293178
 20
-308.7761789753
 10
380.3453445477
 20
-312.9157020976
 10
382.0711639849
 20
-316.8520394868
 10
383.9938498888
 20
-320.5766659126
 10
386.1092381497
 20
-324.0815146635
 10
388.4127473077
 20
-327.3589950178
 10
390.899388475
 20
-330.4020086826
 10
393.5637761405
 20
-333.203965168
 10
396.4001398339
 20
-335.7587960603
 10
399.4023366229
 20
-338.0609681646
 10
402.5638644178
 20
-340.1054954887
 10
405.8778760535
 20
-341.8879500417
 10
409.3371941186
 20
-343.4044714241
 10
412.9343265006
 20
-344.6517751881
 10
416.6614826118
 20
-345.6271599516
 10
420.5105902618
 20
-346.3285132484
 10
424.4733131408
 20
-346.7543161034
 10
428.5410688732
 20
-346.9036463224
 10
432.7050476061
 20
-346.7761804894
 10
436.9562310886
 20
-346.3721946671
 10
441.2854122041
 20
-345.6925637987
 10
445.6832149102
 20
-344.7387598135
 10
450.1401145455
 20
-343.5128484384
 10
454.646458458
 20
-342.0174847245
 10
459.19248691
 20
-340.2559072966
 10
463.7683542164
 20
-338.2319313391
 10
468.3641500675
 20
-335.9499403334
 10
472.9699209927
 20
-333.4148765637
  0
LWPOLYLINE
  5
AE
330
1F
100
AcDbEntity
  8
0
  6
Continuous
 62
     7
370
    25
100
AcDbPolyline
 90
       52
 70
   128
 43
0.0
 10
589.0710277132
 20
-400.438618833
 10
593.6767986385
 20
-397.655972683
 10
598.2725944895
 20
-394.6317707446
 10
602.8484617959
 20
-391.3725627659
 10
607.394490248
 20
-387.8854074654
 10
611.9008341604
 20
-384.1778572452
 10
616.3577337957
 20
-380.2579418333
 10
620.7555365018
 20
-376.1341508938
 10
625.0847176173
 20
-371.8154156394
 10
629.3359010999
 20
-367.3110894891
 10
633.4998798327
 20
-362.6309278104
 10
637.5676355652
 20
-357.7850667911
 10
641.5303584441
 20
-352.7840014873
 10
645.3794660942
 20
-347.6385630928
 10
649.1066222053
 20
-342.3598954814
 10
652.7037545873
 20
-336.9594310716
 10
656.1630726525
 20
-331.4488660668
 10
659.4770842881
 20
-325.8401351238
 10
662.6386120831
 20
-320.1453855048
 10
665.6408088721
 20
-314.3769507694
 10
668.4771725654
 20
-308.5473240628
 10
671.1415602309
 20
-302.6691310583
 10
673.6282013982
 20
-296.755102613
 10
675.9317105563
 20
-290.8180471955
 10
678.0470988172
 20
-284.8708231459
 10
679.969784721
 20
-278.9263108272
 10
681.6956041582
 20
-272.9973847293
 10
683.2208193882
 20
-267.0968855859
 10
684.5421271344
 20
-261.2375925643
 10
685.6566657385
 20
-255.4321955884
 10
686.562021358
 20
-249.6932678553
 10
687.2562331943
 20
-244.0332386046
 10
687.7377977392
 20
-238.4643661993
 10
688.0056720309
 20
-232.9987115769
 10
688.0592759136
 20
-227.6481121283
 10
687.8984932931
 20
-222.4241560604
 10
687.5236723887
 20
-217.3381572989
 10
686.9356249791
 20
-212.4011309844
 10
686.135624644
 20
-207.6237696167
 10
685.1254040061
 20
-203.0164198967
 10
683.9071509782
 20
-198.5890603178
 10
682.4835040251
 20
-194.3512795551
 10
680.8575464491
 20
-190.3122556981
 10
679.0327997124
 20
-186.4807363729
 10
677.0132158099
 20
-182.8650197974
 10
674.8031687106
 20
-179.4729368084
 10
672.4074448846
 20
-176.3118339024
 10
669.8312329361
 20
-173.3885573243
 10
667.0801123665
 20
-170.7094382403
 10
664.1600414904
 20
-168.2802790258
 10
661.077344531
 20
-166.1063406986
 10
659.0653389978
 20
-164.8760644357
  0
LWPOLYLINE
  5
AF
330
1F
100
AcDbEntity
  8
0
  6
Continuous
 62
     7
370
    25
100
AcDbPolyline
 90
       18
 70
   128
 43
0.0
 10
519.0767164287
 20
-407.3697459023
 10
521.978982774
 20
-408.911692311
 10
525.4383008391
 20
-410.4282136934
 10
529.0354332211
 20
-411.6755174574
 10
532.7625893323
 20
-412.6509022209
 10
536.6116969823
 20
-413.3522555177
 10
540.5744198613
 20
-413.7780583727
 10
544.6421755937
 20
-413.9273885917
 10
548.8061543266
 20
-413.7999227587
 10
553.0573378092
 20
-413.3959369364
 10
557.3865189246
 20
-412.716306068
 10
561.7843216307
 20
-411.7625020828
 10
566.2412212661
 20
-410.5365907077
 10
570.7475651785
 20
-409.0412269937
 10
575.2935936306
 20
-407.2796495659
 10
579.8694609369
 20
-405.2556736084
 10
584.465256788
 20
-402.9736826027
 10
589.0710277132
 20
-400.438618833
  0
LWPOLYLINE
  5
B0
330
1F
100
AcDbEntity
  8
0
  6
Continuous
 62
     7
370
    25
100
AcDbPolyline
 90
      123
 70
   128
 43
0.0
 10
472.9699209927
 20
-312.6747399418
 10
477.1414729094
 20
-310.1424814759
 10
481.3019626203
 20
-307.3687924959
 10
485.4403572546
 20
-304.3610283264
 10
489.5456825338
 20
-301.1271650173
 10
493.6070518732
 20
-297.6757781928
 10
497.6136952514
 20
-294.0160203101
 10
501.5549877705
 20
-290.1575963894
 10
505.4204778313
 20
-286.1107382773
 10
509.1999148489
 20
-281.8861775139
 10
512.8832764359
 20
-277.4951168749
 10
516.4607949794
 20
-272.9492006638
 10
519.9229835435
 20
-268.2604838332
 10
523.2606610264
 20
-263.4414000171
 10
526.4649765075
 20
-258.5047285596
 10
529.5274327182
 20
-253.4635606259
 10
532.4399085751
 20
-248.3312644872
 10
535.1946807158
 20
-243.12145007
 10
537.7844439799
 20
-237.8479328658
 10
540.2023307807
 20
-232.524697294
 10
542.441929317
 20
-227.1658596186
 10
544.4973005763
 20
-221.7856305136
 10
546.3629940834
 20
-216.3982773794
 10
548.0340623544
 20
-211.0180865081
 10
549.5060740169
 20
-205.6593251987
 10
550.7751255604
 20
-200.3362039227
 10
551.8378516883
 20
-195.062838641
 10
552.6914342422
 20
-189.8532133702
 10
553.3336096744
 20
-184.7211431
 10
553.7626750512
 20
-179.6802371582
 10
553.9774925683
 20
-174.7438631211
 10
553.9774925683
 20
-169.9251113653
 10
553.7626750512
 20
-165.2367603542
 10
553.3336096744
 20
-160.6912427518
 10
552.6914342422
 20
-156.3006124537
 10
551.8378516883
 20
-152.076512622
 10
550.7751255604
 20
-148.0301448103
 10
549.5060740169
 20
-144.1722392585
 10
548.0340623544
 20
-140.5130264386
 10
546.3629940834
 20
-137.0622099252
 10
544.4973005763
 20
-133.8289406633
 10
542.441929317
 20
-130.8217927018
 10
540.2023307807
 20
-128.0487404564
 10
537.7844439799
 20
-125.5171375633
 10
535.1946807158
 20
-123.2336973782
 10
532.4399085751
 20
-121.2044751739
 10
529.5274327182
 20
-119.434852083
 10
526.4649765075
 20
-117.9295208277
 10
523.2606610264
 20
-116.692473276
 10
519.9229835435
 20
-115.7269898556
 10
516.4607949794
 20
-115.0356308548
 10
512.8832764359
 20
-114.6202296336
 10
509.1999148489
 20
-114.4818877613
 10
505.4204778313
 20
-114.6209720957
 10
501.5549877705
 20
-115.03711381
 10
497.6136952514
 20
-115.7292093713
 10
493.6070518732
 20
-116.6954234666
 10
489.5456825338
 20
-117.9331938698
 10
485.4403572546
 20
-119.4392382363
 10
481.3019626203
 20
-121.2095628072
 10
477.1414729094
 20
-123.2394729999
 10
472.9699209927
 20
-125.5235858576
 10
468.7983690761
 20
-128.0558443235
 10
464.6378793652
 20
-130.8295333035
 10
460.4994847308
 20
-133.837297473
 10
456.3941594516
 20
-137.0711607821
 10
452.3327901122
 20
-140.5225476066
 10
448.326146734
 20
-144.1823054893
 10
444.3848542149
 20
-148.04072941
 10
440.5193641542
 20
-152.0875875221
 10
436.7399271365
 20
-156.3121482855
 10
433.0565655496
 20
-160.7032089245
 10
429.479047006
 20
-165.2491251356
 10
426.016858442
 20
-169.9378419662
 10
422.679180959
 20
-174.7569257823
 10
419.4748654779
 20
-179.6935972398
 10
416.4124092673
 20
-184.7347651735
 10
413.4999334104
 20
-189.8670613122
 10
410.7451612696
 20
-195.0768757294
 10
408.1553980056
 20
-200.3503929336
 10
405.7375112048
 20
-205.6736285054
 10
403.4979126684
 20
-211.0324661808
 10
401.4425414091
 20
-216.4126952858
 10
399.5768479021
 20
-221.80004842
 10
397.905779631
 20
-227.1802392913
 10
396.4337679686
 20
-232.5390006007
 10
395.1647164251
 20
-237.8621218767
 10
394.1019902971
 20
-243.1354871584
 10
393.2484077432
 20
-248.3451124292
 10
392.606232311
 20
-253.4771826994
 10
392.1771669342
 20
-258.5180886412
 10
391.9623494171
 20
-263.4544626783
 10
391.9623494171
 20
-268.2732144341
 10
392.1771669342
 20
-272.9615654452
 10
392.606232311
 20
-277.5070830476
 10
393.2484077432
 20
-281.8977133458
 10
394.1019902971
 20
-286.1218131774
 10
395.1647164251
 20
-290.1681809891
 10
396.4337679686
 20
-294.0260865409
 10
397.905779631
 20
-297.6852993608
 10
399.5768479021
 20
-301.1361158743
 10
401.4425414091
 20
-304.3693851361
 10
403.4979126684
 20
-307.3765330976
 10
405.7375112048
 20
-310.149585343
 10
408.1553980056
 20
-312.6811882361
 10
410.7451612696
 20
-314.9646284212
 10
413.4999334104
 20
-316.9938506255
 10
416.4124092673
 20
-318.7634737164
 10
419.4748654779
 20
-320.2688049717
 10
422.679180959
 20
-321.5058525234
 10
426.016858442
 20
-322.4713359438
 10
429.479047006
 20
-323.1626949446
 10
433.0565655496
 20
-323.5780961658
 10
436.7399271365
 20
-323.7164380381
 10
440.5193641542
 20
-323.5773537037
 10
444.3848542149
 20
-323.1612119894
 10
448.326146734
 20
-322.4691164281
 10
452.3327901122
 20
-321.5029023328
 10
456.3941594516
 20
-320.2651319296
 10
460.4994847308
 20
-318.7590875631
 10
464.6378793652
 20
-316.9887629922
 10
468.7983690761
 20
-314.9588527995
 10
472.9699209927
 20
-312.6747399418
  0
ARC
  5
B1
330
1F
100
AcDbEntity
  8
0
  6
Continuous
 62
     7
370
    25
100
AcDbCircle
 10
683.8491200594
 20
-340.8371332553
 30
0.0
 40
190.5086917089006
100
AcDbArc
 50
134.8590697303
 51
165.1463068024
  0
ENDSEC
  0
SECTION
  2
OBJECTS
  0
DICTIONARY
  5
C
330
0
100
AcDbDictionary
281
     1
  3
ACAD_GROUP
350
D
  3
ACAD_LAYOUT
350
1A
  3
ACAD_MLINESTYLE
350
17
  3
ACAD_PLOTSETTINGS
350
19
  3
ACAD_PLOTSTYLENAME
350
E
  3
ACAD_SCALELIST
350
47
  3
DWGPROPS
350
B2
  0
DICTIONARY
  5
D
102
{ACAD_REACTORS
330
C
102
}
330
C
100
AcDbDictionary
281
     1
  0
DICTIONARY
  5
1A
102
{ACAD_REACTORS
330
C
102
}
330
C
100
AcDbDictionary
281
     1
  3
Layout1
350
1E
  3
Layout2
350
26
  3
Model
350
22
  0
DICTIONARY
  5
17
102
{ACAD_REACTORS
330
C
102
}
330
C
100
AcDbDictionary
281
     1
  3
Standard
350
18
  0
DICTIONARY
  5
19
102
{ACAD_REACTORS
330
C
102
}
330
C
100
AcDbDictionary
281
     1
  0
ACDBDICTIONARYWDFLT
  5
E
102
{ACAD_REACTORS
330
C
102
}
330
C
100
AcDbDictionary
281
     1
  3
Normal
350
F
100
AcDbDictionaryWithDefault
340
F
  0
DICTIONARY
  5
47
102
{ACAD_REACTORS
330
C
102
}
330
C
100
AcDbDictionary
281
     1
  3
A0
350
48
  3
A1
350
49
  3
A2
350
4A
  3
A3
350
4B
  3
A4
350
4C
  3
A5
350
4D
  3
A6
350
4E
  3
A7
350
4F
  3
A8
350
50
  3
A9
350
51
  3
B0
350
52
  3
B1
350
53
  3
B2
350
54
  3
B3
350
55
  3
B4
350
56
  3
B5
350
57
  3
B6
350
58
  3
B7
350
59
  3
B8
350
5A
  3
B9
350
5B
  3
C0
350
5C
  3
C1
350
5D
  3
C2
350
5E
  3
C3
350
5F
  3
C4
350
60
  3
C5
350
61
  3
C6
350
62
  3
C7
350
63
  3
C8
350
64
  3
C9
350
65
  3
D0
350
66
  3
D1
350
67
  3
D2
350
68
  0
XRECORD
  5
B2
102
{ACAD_REACTORS
330
C
102
}
330
C
100
AcDbXrecord
280
     1
  1
DWGPROPS COOKIE
  2

  3

  4

  6

  7

  8
b.kav
  9

300
=
301
=
302
=
303
=
304
=
305
=
306
=
307
=
308
=
309
=
 40
0.0
 41
2460697.416002003
 42
2460697.416002118
  1

 90
        0
  0
LAYOUT
  5
1E
102
{ACAD_REACTORS
330
1A
102
}
330
1A
100
AcDbPlotSettings
  1

  2
none_device
  4

  6

 40
0.0
 41
0.0
 42
0.0
 43
0.0
 44
0.0
 45
0.0
 46
0.0
 47
0.0
 48
0.0
 49
0.0
140
0.0
141
0.0
142
1.0
143
1.0
 70
   688
 72
     1
 73
     0
 74
     5
  7

 75
    16
147
1.0
148
0.0
149
0.0
100
AcDbLayout
  1
Layout1
 70
     1
 71
     1
 10
0.0
 20
0.0
 11
420.0
 21
297.0
 12
0.0
 22
0.0
 32
0.0
 14
1.0000000000E+20
 24
1.0000000000E+20
 34
1.0000000000E+20
 15
-1.0000000000E+20
 25
-1.0000000000E+20
 35
-1.0000000000E+20
146
0.0
 13
0.0
 23
0.0
 33
0.0
 16
1.0
 26
0.0
 36
0.0
 17
0.0
 27
1.0
 37
0.0
 76
     0
330
1B
  0
LAYOUT
  5
26
102
{ACAD_REACTORS
330
1A
102
}
330
1A
100
AcDbPlotSettings
  1

  2
none_device
  4

  6

 40
0.0
 41
0.0
 42
0.0
 43
0.0
 44
0.0
 45
0.0
 46
0.0
 47
0.0
 48
0.0
 49
0.0
140
0.0
141
0.0
142
1.0
143
1.0
 70
   688
 72
     1
 73
     0
 74
     5
  7

 75
    16
147
1.0
148
0.0
149
0.0
100
AcDbLayout
  1
Layout2
 70
     1
 71
     2
 10
0.0
 20
0.0
 11
0.0
 21
0.0
 12
0.0
 22
0.0
 32
0.0
 14
0.0
 24
0.0
 34
0.0
 15
0.0
 25
0.0
 35
0.0
146
0.0
 13
0.0
 23
0.0
 33
0.0
 16
1.0
 26
0.0
 36
0.0
 17
0.0
 27
1.0
 37
0.0
 76
     0
330
23
  0
LAYOUT
  5
22
102
{ACAD_REACTORS
330
1A
102
}
330
1A
100
AcDbPlotSettings
  1

  2
none_device
  4
Letter_(8.50_x_11.00_Inches)
  6

 40
6.35
 41
6.35
 42
6.35000508
 43
6.35000508
 44
215.9
 45
279.4
 46
0.0
 47
0.0
 48
0.0
 49
0.0
140
0.0
141
0.0
142
1.0
143
1.0
 70
  1712
 72
     1
 73
     0
 74
     0
  7

 75
     0
147
1.0
148
0.0
149
0.0
100
AcDbLayout
  1
Model
 70
     1
 71
     0
 10
0.0
 20
0.0
 11
279.4
 21
215.9
 12
0.0
 22
0.0
 32
0.0
 14
0.0
 24
0.0
 34
0.0
 15
279.4
 25
215.9
 35
0.0
146
0.0
 13
0.0
 23
0.0
 33
0.0
 16
1.0
 26
0.0
 36
0.0
 17
0.0
 27
1.0
 37
0.0
 76
     0
330
1F
331
29
  0
MLINESTYLE
  5
18
102
{ACAD_REACTORS
330
17
102
}
330
17
100
AcDbMlineStyle
  2
Standard
 70
     0
  3

 62
   256
 51
90.0
 52
90.0
 71
     2
 49
0.5
 62
   256
  6
BYLAYER
 49
-0.5
 62
   256
  6
BYLAYER
  0
ACDBPLACEHOLDER
  5
F
102
{ACAD_REACTORS
330
E
102
}
330
E
  0
SCALE
  5
48
102
{ACAD_REACTORS
330
47
102
}
330
47
100
AcDbScale
 70
     0
300
1:1
140
1.0
141
1.0
290
     1
  0
SCALE
  5
49
102
{ACAD_REACTORS
330
47
102
}
330
47
100
AcDbScale
 70
     0
300
1:2
140
1.0
141
2.0
290
     0
  0
SCALE
  5
4A
102
{ACAD_REACTORS
330
47
102
}
330
47
100
AcDbScale
 70
     0
300
1:4
140
1.0
141
4.0
290
     0
  0
SCALE
  5
4B
102
{ACAD_REACTORS
330
47
102
}
330
47
100
AcDbScale
 70
     0
300
1:5
140
1.0
141
5.0
290
     0
  0
SCALE
  5
4C
102
{ACAD_REACTORS
330
47
102
}
330
47
100
AcDbScale
 70
     0
300
1:8
140
1.0
141
8.0
290
     0
  0
SCALE
  5
4D
102
{ACAD_REACTORS
330
47
102
}
330
47
100
AcDbScale
 70
     0
300
1:10
140
1.0
141
10.0
290
     0
  0
SCALE
  5
4E
102
{ACAD_REACTORS
330
47
102
}
330
47
100
AcDbScale
 70
     0
300
1:16
140
1.0
141
16.0
290
     0
  0
SCALE
  5
4F
102
{ACAD_REACTORS
330
47
102
}
330
47
100
AcDbScale
 70
     0
300
1:20
140
1.0
141
20.0
290
     0
  0
SCALE
  5
50
102
{ACAD_REACTORS
330
47
102
}
330
47
100
AcDbScale
 70
     0
300
1:30
140
1.0
141
30.0
290
     0
  0
SCALE
  5
51
102
{ACAD_REACTORS
330
47
102
}
330
47
100
AcDbScale
 70
     0
300
1:40
140
1.0
141
40.0
290
     0
  0
SCALE
  5
52
102
{ACAD_REACTORS
330
47
102
}
330
47
100
AcDbScale
 70
     0
300
1:50
140
1.0
141
50.0
290
     0
  0
SCALE
  5
53
102
{ACAD_REACTORS
330
47
102
}
330
47
100
AcDbScale
 70
     0
300
1:100
140
1.0
141
100.0
290
     0
  0
SCALE
  5
54
102
{ACAD_REACTORS
330
47
102
}
330
47
100
AcDbScale
 70
     0
300
2:1
140
2.0
141
1.0
290
     0
  0
SCALE
  5
55
102
{ACAD_REACTORS
330
47
102
}
330
47
100
AcDbScale
 70
     0
300
4:1
140
4.0
141
1.0
290
     0
  0
SCALE
  5
56
102
{ACAD_REACTORS
330
47
102
}
330
47
100
AcDbScale
 70
     0
300
8:1
140
8.0
141
1.0
290
     0
  0
SCALE
  5
57
102
{ACAD_REACTORS
330
47
102
}
330
47
100
AcDbScale
 70
     0
300
10:1
140
10.0
141
1.0
290
     0
  0
SCALE
  5
58
102
{ACAD_REACTORS
330
47
102
}
330
47
100
AcDbScale
 70
     0
300
100:1
140
100.0
141
1.0
290
     0
  0
SCALE
  5
59
102
{ACAD_REACTORS
330
47
102
}
330
47
100
AcDbScale
 70
     0
300
1/128" = 1'-0"
140
0.0078125
141
12.0
290
     0
  0
SCALE
  5
5A
102
{ACAD_REACTORS
330
47
102
}
330
47
100
AcDbScale
 70
     0
300
1/64" = 1'-0"
140
0.015625
141
12.0
290
     0
  0
SCALE
  5
5B
102
{ACAD_REACTORS
330
47
102
}
330
47
100
AcDbScale
 70
     0
300
1/32" = 1'-0"
140
0.03125
141
12.0
290
     0
  0
SCALE
  5
5C
102
{ACAD_REACTORS
330
47
102
}
330
47
100
AcDbScale
 70
     0
300
1/16" = 1'-0"
140
0.0625
141
12.0
290
     0
  0
SCALE
  5
5D
102
{ACAD_REACTORS
330
47
102
}
330
47
100
AcDbScale
 70
     0
300
3/32" = 1'-0"
140
0.09375
141
12.0
290
     0
  0
SCALE
  5
5E
102
{ACAD_REACTORS
330
47
102
}
330
47
100
AcDbScale
 70
     0
300
1/8" = 1'-0"
140
0.125
141
12.0
290
     0
  0
SCALE
  5
5F
102
{ACAD_REACTORS
330
47
102
}
330
47
100
AcDbScale
 70
     0
300
3/16" = 1'-0"
140
0.1875
141
12.0
290
     0
  0
SCALE
  5
60
102
{ACAD_REACTORS
330
47
102
}
330
47
100
AcDbScale
 70
     0
300
1/4" = 1'-0"
140
0.25
141
12.0
290
     0
  0
SCALE
  5
61
102
{ACAD_REACTORS
330
47
102
}
330
47
100
AcDbScale
 70
     0
300
3/8" = 1'-0"
140
0.375
141
12.0
290
     0
  0
SCALE
  5
62
102
{ACAD_REACTORS
330
47
102
}
330
47
100
AcDbScale
 70
     0
300
1/2" = 1'-0"
140
0.5
141
12.0
290
     0
  0
SCALE
  5
63
102
{ACAD_REACTORS
330
47
102
}
330
47
100
AcDbScale
 70
     0
300
3/4" = 1'-0"
140
0.75
141
12.0
290
     0
  0
SCALE
  5
64
102
{ACAD_REACTORS
330
47
102
}
330
47
100
AcDbScale
 70
     0
300
1" = 1'-0"
140
1.0
141
12.0
290
     0
  0
SCALE
  5
65
102
{ACAD_REACTORS
330
47
102
}
330
47
100
AcDbScale
 70
     0
300
1-1/2" = 1'-0"
140
1.5
141
12.0
290
     0
  0
SCALE
  5
66
102
{ACAD_REACTORS
330
47
102
}
330
47
100
AcDbScale
 70
     0
300
3" = 1'-0"
140
3.0
141
12.0
290
     0
  0
SCALE
  5
67
102
{ACAD_REACTORS
330
47
102
}
330
47
100
AcDbScale
 70
     0
300
6" = 1'-0"
140
6.0
141
12.0
290
     0
  0
SCALE
  5
68
102
{ACAD_REACTORS
330
47
102
}
330
47
100
AcDbScale
 70
     0
300
1'-0" = 1'-0"
140
12.0
141
12.0
290
     0
  0
ENDSEC
  0
EOF
